Blink 182 - Carousel (var.60) Gitarrennoten kostenlos herutnerladen oder online abspielen

Gitarrennoten für Carousel (var.60) von Blink 182 kostenlos herutnerladen oder online abspielen: Datei .txt, 6.69 kb hat 560 Aufrufe und 0 Downloads.

Download gitarrennoten "Carousel (var.60)" (Blink 182)

Blink 182 Bandname
Carousel Songname
Gitarrennoten Registerkarten-Typ
6.69 kb Dateigröße
.TXT Dateityp
560 Aufrufe
0 Downloads
 
Bist du ein Roboter?

Carousel (var.60) gitarrennoten lesen onder online abpsielen

                    This is the Cheshire Cat version of Carousel.

Intro
e---------------------------------------------------------------------------------------|
B---------------------------------------------------------------------------------------|
G---77777777777777-------------------77777777-77777777777777-------------------77777777-|
D---77777777777777-4-5-5-5-5-4-4-----77777777-77777777777777-4-5-5-5-5-4-4-----77777777-|
A---55555555555555---------------7-7-55555555-55555555555555---------------7-5-55555555-|
E---------------------------------------------------------------------------------------|
 pm ..............                   ........ ..............                   ........

e---------------------------------------------------------------------------------------|
B---------------------------------------------------------------------------------------|
G---77777777777777-------------------77777777-77777777777777-------------------77777777-|
D---77777777777777-4-5-5-5-5-4-4-----77777777-77777777777777-4-5-5-5-5-4-4-----77777777-|
A---55555555555555---------------7-7-55555555-55555555555555---------------7-5-55555555-|
E---------------------------------------------------------------------------------------|
 pm ..............                   ........ ..............                   ........

e-------|
B-------|
G-------|
D-------|
A-4-5-5-|
E-------|


e-----------------------------------------------------------------------|
B-----------------------------------------------------------------------|
G-777777-999999-111111111111-777777---777777-999999-111111111111-777777-|
D-777777-999999-111111111111-777777---777777-999999-111111111111-777777-|
A-555555-777777-9-9-9-9-9-9--555555---555555-777777-9-9-9-9-9-9--555555-|
E-----------------------------------------------------------------------|

Distortion on
e-------------------------------------------------------------------------|
B-------------------------------------------------------------------------|
G-77777777----------------------------77777777----------------------------|
D-77777777-77777777-9999999-55555555--77777777-77777777-99999999-55555555-|
A-55555555-77777777-9999999-55555555--55555555-77777777-99999999-55555555-|
E----------55555555-7777777-33333333-----------55555555-77777777-33333333-|

e-----------------------------------------------------|
B-----------------------------------------------------|
G-----------------------------------------------------|
D-----------------------------------------------------|
A-4-5---4-5-5555-5-4-5-7-5-4-5---4-5555-5-4-5-7-5-4-0-|
E-----------------------------------------------------|

Interlude
e-----------------------------------------------------------------------|
B-----------------------------------------------------------------------| I do not know
G-----------------------------------------------------------------------| the 2 second
D-4-4-4-4-4-5-2-2-2-2-2-2-4-4-4-4h5p4-7-7-5-4-2-4-4-4-4-4-5-2-2-2-2-2-2-| riff that is
A-----------------------------------------------------------------------| played before
E-----------------------------------------------------------------------| Tom sings.

Verse
e---------------------------------------------------------|
B---------------------------------------------------------|
G-7-7777---------------12-12---7-7777---------------12-12-|
D-7-7777-7-7777-9-9999-12-12---7-7777-7-7777-9-9999-12-12-|
A-5-5555-7-7777-9-9999-10-10---5-5555-7-7777-9-9999-10-10-|
E--------5-5555-7-7777----------------5-5555-7-7777-------|

e-----------------------------------------------------------------------------------------|
B-----------------------------------------------------------------------------------------|
G-----11---11-----9---9-----11---11-----7---7-----11---11-----9---9-----11---11-----7---7-|
D-9-9----9----7-7---7---9-9----9----5-5---5---9-9----9----7-7---7---9-9----9----5-5---5---|
A-----------------------------------------------------------------------------------------|
E-----------------------------------------------------------------------------------------|

Chorus
e--------------------------------------|
B--------------------------------------|
G-7-------------------7----------------|
D-7----7----9----5----7----7----9----5-|
A-5----7----9----5----5----7----9----5-|
E------5----7----3---------5----7----3-|

e------------------------------------------------------------------|
B------------------------------------------------------------------|
G-77777777-99999999-1111111111111111-77777777-77777777-99999999-11-|
D-77777777-99999999-1111111111111111-77777777-77777777-99999999-11-|
A-55555555-77777777-9-9-9-9-9-9-9-9--55555555-55555555-77777777-9--|
E------------------------------------------------------------------|

Interlude
e-----------------------------------------------------------------------|
B-----------------------------------------------------------------------| I do not know
G-----------------------------------------------------------------------| the 2 second
D-4-4-4-4-4-5-2-2-2-2-2-2-4-4-4-4h5p4-7-7-5-4-2-4-4-4-4-4-5-2-2-2-2-2-2-| riff that is
A-----------------------------------------------------------------------| played before
E-----------------------------------------------------------------------| Tom sings.

e---------------------------------------------------------|
B---------------------------------------------------------|
G-7-7777---------------12-12---7-7777---------------12-12-|
D-7-7777-7-7777-9-9999-12-12---7-7777-7-7777-9-9999-12-12-|
A-5-5555-7-7777-9-9999-10-10---5-5555-7-7777-9-9999-10-10-|
E--------5-5555-7-7777----------------5-5555-7-7777-------|

Solo
e----------------------------------------------------------|
B----------------------------------------------------------|
G----------------------------------------------------------|
D---4-5-7-5-4----------------------------------------------|
A-5-----------5---4-5-7-5-4-----7-9-10-9-7-----2-3-5-3-2---|
E---------------5-----------5-7------------7-3-----------3-|x4

Chorus
e--------------------------------------|
B--------------------------------------|
G-7-------------------7----------------|
D-7----7----9----5----7----7----9----5-|
A-5----7----9----5----5----7----9----5-|
E------5----7----3---------5----7----3-|
                                                                   end on
e------------------------------------------------------------------|-----|
B------------------------------------------------------------------|-----|
G-77777777-99999999-1111111111111111-77777777-77777777-99999999-11-|--7--|
D-77777777-99999999-1111111111111111-77777777-77777777-99999999-11-|--7--|
A-55555555-77777777-9-9-9-9-9-9-9-9--55555555-55555555-77777777-9--|--5--|
E------------------------------------------------------------------|-----|

if anybody knows the little riff that i don't please e-mail tony_b02@hotmail.com                    

Kommentare für gitarrennoten — Carousel (var.60) (Blink 182)

Andere Carousel (var.60) von Blink 182 Registerkarten:

Zuletzt angesehene Blink 182 Registerkarten: