Blink 182 - Carousel (var.56) Gitarrennoten kostenlos herutnerladen oder online abspielen

Gitarrennoten für Carousel (var.56) von Blink 182 kostenlos herutnerladen oder online abspielen: Datei .txt, 5.55 kb hat 548 Aufrufe und 0 Downloads.

Download gitarrennoten "Carousel (var.56)" (Blink 182)

Blink 182 Bandname
Carousel Songname
Gitarrennoten Registerkarten-Typ
5.55 kb Dateigröße
.TXT Dateityp
548 Aufrufe
0 Downloads
 
Bist du ein Roboter?

Carousel (var.56) gitarrennoten lesen onder online abpsielen

                    Artist: Blink 182
Song: Carousel
Album: Cheshire Cat
Tab By: Sam
smf__007@msn.com

Ok, i've seen too many shitty tabs for this song, i havent seen one that sounded right yet, so i tabbed it, this is perfect, except for a note here and there. Email me for any other blink tabs.

---------------------------------------------------------------------
---------------------------------------------------------------------
---------------------------------------------------------------------
-------------------------------------------4-5-5-5-4-4-4-------------
-12-12-12-10-10-10-9--12-12-12-10-10-10-9----------------5--5-5-5-5--
---------------------------------------------------------------------
1x

--------------------------------------------------------------
--------------------------------------------------------------
--------------------------------------------------------------
------------------------------------4-5-5-5-4-4-4-------------
-10-10-10-9-9-9-7--10-10-10-9-9-9-7---------------5--5-5-5-5--
--------------------------------------------------------------
1x

---------------------------------------------------------------------
---------------------------------------------------------------------
---------------------------------------------------------------------
-------------------------------------------4-5-5-5-4-4-4-------------
-12-12-12-10-10-10-9--12-12-12-10-10-10-9----------------5--5-5-5-5--
---------------------------------------------------------------------
1x

---------------------------------------------------------------------
---------------------------------------------------------------------
---------------------------------------------------------------------
------------------------------------4-5-5-5-4-4-4--------------------
-10-10-10-9-9-9-7--10-10-10-9-9-9-7---------------5--5-5-5-5----9-10-
---------------------------------------------------------------------
1x

--------------------------------------------------------------------------
-------------------------(i know the bass is supposed to play this, but i-
----------------------------put it on here since it is so cool)-----------
----4-4-5-7-5-4-----------------------------------------------------------
--5-------------5-----4-4-5-7-5-4------7-7-9-10-10-9-9----5-5---5---5-----
-------------------5--------------5--7------------------3-----3---3-------
2x
----------------------------
----------------------------
----------------------------
-77777----------------------
-55555--77777--99999--55555-
--------55555--77777--33333-
4x
------------------------------------------------
------------------------------------------------
-7--7-7-7-7-------------------------------------
-7--7-7-7-7--7--7-7-7-7--9--9-9-9-9--5--5-5-5-5-
-5--5-5-5-5--7--7-7-7-7--9--9-9-9-9--5--5-5-5-5-
-------------5--5-5-5-5--7--7-7-7-7--3--3-3-3-3-
2x


--------------------
--------------------
--------------------
-4---2---0-2-0------
---------------4-0--
--------------------
2x

-----------------------------------------------------------
-----------------------------------------------------------
-----------------------------------------------------------
4-4-4-4-4-4-4-4-2-2-2-2-2-2-2-2-4-4-4-4-4-4-4-4-0-2-0------
------------------------------------------------------0-4--
-----------------------------------------------------------
4x

-------------------------------------------------------
-------------------------------------------------------
-7---7-7-7-7-------------------------------------------
-7---7-7-7-7---7---7-7-7-7---9---9-9-9-9---5---5-5-5-5-
-5---5-5-5-5---7---7-7-7-7---9---9-9-9-9---5---5-5-5-5-
---------------5---5-5-5-5---7---7-7-7-7---3---3-3-3-3-
4x

----------------------------------------
----------------------------------------
--7-7-7-7---9-9-9-9---------------------
--7-7-7-7---9-9-9-9---7-7-7-7---5-5-5-5-
--5-5-5-5---7-7-7-7---7-7-7-7---5-5-5-5-
----------------------5-5-5-5---3-3-3-3-
4x

-----------------------------------------------------------
-----------------------------------------------------------
-----------------------------------------------------------
4-4-4-4-4-4-4-4-2-2-2-2-2-2-2-2-4-4-4-4-4-4-4-4-0-0-2-0----
--------------------------------------------------------4--
-----------------------------------------------------------
2x

-------------------------------------------------------
-------------------------------------------------------
-7---7-7-7-7-------------------------------------------
-7---7-7-7-7---7---7-7-7-7---9---9-9-9-9---5---5-5-5-5-
-5---5-5-5-5---7---7-7-7-7---9---9-9-9-9---5---5-5-5-5-
---------------5---5-5-5-5---7---7-7-7-7---3---3-3-3-3-
2x

--------------------------------------------------
--------------------------------------------------
--------------------------------------------------
----4-5-7-4---------------------------------------
-5-------------4-5-7-4-------6-7-9-6------2-3-5-2-
-------------5-------------7------------3---------
1x
--------------------------------------------------------------
--------------------------------------------------------------
--------------------------------------------------------------
----4-5-7-5-4-------------------------------------------------
--5-----------5----4-5-7-5-4------6-7-9-7-6------2-3-5-3-2----
-----------------5-----------5--7-----------7--3-----------3--
4x play as fast as you can

---------------------------------------- --
---------------------------------------- --
--7-7-7-7---9-9-9-9--------------------- --
--7-7-7-7---9-9-9-9---7-7-7-7---5-5-5-5- -7-
--5-5-5-5---7-7-7-7---7-7-7-7---5-5-5-5- -7-
----------------------5-5-5-5---3-3-3-3- -5-
4x                                        ^ End on that                    

Kommentare für gitarrennoten — Carousel (var.56) (Blink 182)

Andere Carousel (var.56) von Blink 182 Registerkarten:

Zuletzt angesehene Blink 182 Registerkarten: