Blink 182 - Carousel (var.85) Gitarrennoten kostenlos herutnerladen oder online abspielen

Gitarrennoten für Carousel (var.85) von Blink 182 kostenlos herutnerladen oder online abspielen: Datei .txt, 0.68 kb hat 552 Aufrufe und 0 Downloads.

Download gitarrennoten "Carousel (var.85)" (Blink 182)

Blink 182 Bandname
Carousel Songname
Gitarrennoten Registerkarten-Typ
0.68 kb Dateigröße
.TXT Dateityp
552 Aufrufe
0 Downloads
 
Bist du ein Roboter?

Carousel (var.85) gitarrennoten lesen onder online abpsielen

                    Standard Tuning Blah Blah Blah
                               x2
E|------------------------------------------------------------------|
B|------------------------------------------------------------------|
G|------------------------------------------------------------------|
D|---4-4-5-7-5-4-0-------------------2-2-4-5-4-2-4-0-0-0------------|
A|-5-----------------4-4-5-7-5-4-2-2--------------------------------|
E|-----------------5------------------------------------------------|

D|4-4-4-4-4-2-2-2-2-2-8-8-8-8-8-2-2-2-2-2-6-6-6-6-6-4-4-4-4-4-------|
A|0-0-0-0-0-0-0-0-0-0-6-6-6-6-6-0-0-0-0-0-4-4-4-4-4-2-2-2-2-2-------|

                      x6
D|8-8-8-8-8-4-4-4-4-4-
A|6-6-6-6-6-2-2-2-2-2-                    

Kommentare für gitarrennoten — Carousel (var.85) (Blink 182)

Andere Carousel (var.85) von Blink 182 Registerkarten:

Zuletzt angesehene Blink 182 Registerkarten: