Blink 182 - Carousel (var.32) Bass Noten kostenlos herutnerladen oder online abspielen

Bass Noten für Carousel (var.32) von Blink 182 kostenlos herutnerladen oder online abspielen: Datei .txt, 3.9 kb hat 527 Aufrufe und 0 Downloads.

Download bass noten "Carousel (var.32)" (Blink 182)

Blink 182 Bandname
Carousel Songname
Bass Noten Registerkarten-Typ
3.9 kb Dateigröße
.TXT Dateityp
527 Aufrufe
0 Downloads
 
Bist du ein Roboter?

Carousel (var.32) bass noten lesen onder online abpsielen

                    Carousel
Blink 182

Intro (Play Behind or on pick-ups)

-14-14-14-12-12-12-11-
-0--0--0--0--0--0--0--
---------------------- x2
----------------------

-6-6-6-7-7-7-9-9-
-7-7-7-7-7-7-7-7-  
----------------- x2
-----------------

-12-12-12-11-11-11-9-9--
-9--9--9--9--9--9--9-9--  
------------------------ x2
------------------------

-7-7-7-7-7-7-7-7-
-5-5-5-5-5-5-5-5-
----------------- x2
-----------------

-14-14-14-12-12-12-11-
-0--0--0--0--0--0--0--
---------------------- x2
----------------------

-6-6-6-7-7-7-9-9-
-7-7-7-7-7-7-7-7-  
----------------- x2
-----------------

-12-12-12-11-11-11-9-9--
-9--9--9--9--9--9--9-9--  
------------------------ x2
------------------------

-7-7-7-7-7-7-7-7-
-5-5-5-5-5-5-5-5-
----------------- x2
-----------------

---11-11-12-14-12-11------6-6-7-9-7-6-----9-9-11-12-11-9-7--
-0-------------------12-7-------------7-9-------------------
------------------------------------------------------------
------------------------------------------------------------

-----7-----7---7--
-5-5---5-5---5----
------------------
------------------

---11-11-12-14-12-11------6-6-7-9-7-6-----9-9-11-12-11-9-7--
-0-------------------12-7-------------7-9-------------------
------------------------------------------------------------
------------------------------------------------------------

-7-7-7-7-7-7-7-7-
-5-5-5-5-5-5-5-5-
-----------------
-----------------

-11-11-11-11-9-9-9-9-11-11-11-11-7-7-7-7--
-0--0--0--0--7-7-7-7-9--9--9--9--5-5-5-5-- x4
------------------------------------------
------------------------------------------

Come in at 1:04

-11-11-11-11-9-9-9-9-11-11-11-11-7-7-7-7--
-0--0--0--0--7-7-7-7-9--9--9--9--5-5-5-5-- x2
------------------------------------------
------------------------------------------

------------------------------------------
------------------------------------------ x2
--55555555--------------------------------
-----------55555555-77777777-33333333-----

Verse

------------------------------------------
-----------------------------55555555----- x4
--55555555--------------------------------
-----------55555555-77777777--------------

Chorus

-----------------------------------------
-------------------77777777-5555555------
-55555555-77777777----------------------- x4
-----------------------------------------



-----------------------------------------
----------------------------------------- x2
-55555555--------------------------------
----------55555555-77777777-33333333-----

Verse

------------------------------------------
-----------------------------55555555----- x2
--55555555--------------------------------
-----------55555555-77777777--------------

Bridge

-11-11-11-11-9-9-9-9-11-11-11-11-7-7-7-7--
-0--0--0--0--7-7-7-7-9--9--9--9--5-5-5-5-- x2
------------------------------------------
------------------------------------------

-----------------------------------------
-----------------------------------------
-5-------------------5-------------------
------5----7----3---------5---7777-3333--

-----------------------------------------
----------------------------------------- x2
-55555555--------------------------------
----------55555555-77777777-33333333-----

Chorus

-----------------------------------------
-------------------77777777-5555555------
-55555555-77777777----------------------- x4
-----------------------------------------

End Note

------
------
-5~---
------                    

Kommentare für bass noten — Carousel (var.32) (Blink 182)

Andere Carousel (var.32) von Blink 182 Registerkarten:

Zuletzt angesehene Blink 182 Registerkarten: