Blink 182 - Carousel (var.4) Gitarrennoten kostenlos herutnerladen oder online abspielen

Gitarrennoten für Carousel (var.4) von Blink 182 kostenlos herutnerladen oder online abspielen: Datei .txt, 4.15 kb hat 595 Aufrufe und 0 Downloads.

Download gitarrennoten "Carousel (var.4)" (Blink 182)

Blink 182 Bandname
Carousel Songname
Gitarrennoten Registerkarten-Typ
4.15 kb Dateigröße
.TXT Dateityp
595 Aufrufe
0 Downloads
 
Bist du ein Roboter?

Carousel (var.4) gitarrennoten lesen onder online abpsielen

                    Band:Blink 182

Song:Carousel

Album:Buddha



Intro:

Bass arranged for guitar

|-----------------------------------------------------------------------------

|-----------------------------------------------------------------------------

|-----------------------------------------------------------------------------

|---445754-------------------------------445754-------------------------------

|--5------5--445754---77911979---5--5-5-5------5--445754---77911979-55555555--

|-----------5------5-7---------33-33-3-----------5------5-7---------33333333--



|----------------------------------------------

|----------------------------------------------

|----------------------------------------------

|--44-44-4-4-----------------------------------

|--55-55-5-5-77-77-7-7-99-99-9-9-55-55-5-5--X4-

|------------55-55-5-5-77-77-7-7-33-33-3-3-----



This is what the guitar really plays with the above riff (clean)

|-----------------------------------------------------------

|-----------------------------------------------------------

|--1111-1111-11-11-99-99-9-9-1111-1111-11-11-77-77-7-7------

|--1212-1212-12-12-77-77-7-7--9-9--9-9--9--9-55-55-5-5---X4-

|-----------------------------------------------------------

|-----------------------------------------------------------

   pm..................................................



Distorted

|---------------------------------------

|---------------------------------------

|--777-777------------------------------

|--777-777-777-777-999-999-555-555------

|--555-555-777-777-999-999-555-555---X2-

|----------555-555-777-777-333-333------



|------------------------------------------------------

|------------------------------------------------------

|------------------------------------------------------

|------------------------------------------------------

|--45------4555555445577554p5------4-4445-55-7545754---

|------------------------------------------------------



Bridge:

|-----------------------------------------------------------------------------------

|-----------------------------------------------------------------------------------

|-----------------------------------------------------------------------------------

|--4444445-2-222222-44444h5p4-77-5-4-2-4444445-2-2222h4-0-00-50-45-00-20-4h5-4p2-0--

|-----------------------------------------------------------------------------------

|-----------------------------------------------------------------------------------



Verse:

|---------------------------------------------------

|---------------------------------------------------

|--77777777-------------------1212121212121212------

|--77777777-77777777-99999999-1212121212121212------

|--55555555-77777777-99999999-1010101010101010---X2-

|-----------55555555-77777777-----------------------



|---------------------------------------------------

|---------------------------------------------------

|--11----11----11--9--9--9-11--11--11-7--7--7-------

|----1212--1212--12-77-77-7--99--99--9-55-55-5---X2-

|---------------------------------------------------

|---------------------------------------------------



Chorus:

|-------------------------------------------

|-------------------------------------------

|--77777777-99999999------------------------

|--77777777-99999999-77777777-55555555------

|--55555555-77777777-77777777-55555555---X4-

|--------------------55555555-33333333------



Bridge



Verse 2:

|-------------------------------------------------------

|-------------------------------------------------------

|--77777777-------------------1212121212121212-------7--

|--77777777-77777777-99999999-1212121212121212-------7--

|--55555555-77777777-99999999-1010101010101010---X2--5--

|-----------55555555-77777777---------------------------



Interlude:

|----------------------------------------

|----------------------------------------

|----------------------------------------

|---45754--------------------------------

|--5-----5--45754---67976---23532-----X4-

|----------5-----5-7-----7-3-----3-------



Chorus



End:

|-----

|-----

|--7--

|--7--

|--5--

|-----                    

Kommentare für gitarrennoten — Carousel (var.4) (Blink 182)

Andere Carousel (var.4) von Blink 182 Registerkarten:

Zuletzt angesehene Blink 182 Registerkarten: